アコースティック・ソロギター、アコギのソロ、こんな曲を練習しています。

アコースティック・ソロギターに夢中!

お気に入りアコースティック・ソロギターを紹介、アコギソロはいいですよ。

アコースティック・ソロギター(アコギソロ)に夢中、アコースティック・ソロギターでこんな曲を弾きたい!

 ギターを弾き始めたのは30年以上も前、始めて手に入れたのはやはり、アコースティック・ギター(アコギ)です。一人で弾くのも好きでしたが、バンドも経験しました。しかし、この10年ほどギターに触ることもなくなっていました。昔の情熱もなくなり、忙しさに追われてギターは押入れで眠ったままでした。

 しかし、近年ちょっとしたことからアコースティック・ギターに目覚め、再び弾き始めました。今、アコースティック・ソロギターに夢中です。

 アコースティックのソロギターって楽しいですね。弾きはじめるとつい時の経つのも忘れてしまいます。
 今はYOUTUBEがあるので、曲も豊富に探せます。このサイトは、私が弾いている曲を紹介したくて作成しました。

 アコースティック・ソロギターと言ってもレベルは様々です。このサイトで取り上げる曲は、初心者にはちょっと大変かも知れません。中の下レベルかなぁ。僕と同じくらいのレベルの方の曲探しに役立てば光栄です。

Alice’s Restaurant / アリスのレストラン アロ・ガスリー

Alice’s Restaurant / アリスのレストラン アロ・ガスリー 2年ほど前(2006年)古びたレコードを整理していた時、このアルバムを見つけました。アロ・ガスリーの「アリスのレストラン」です。
 曲は20分近くもあるのですが、ギターパターンはずっと同じ、延々とアリスのレストランの話が語られる曲です。

 このギターの雰囲気がすごく気に入って、久しぶりにギターを弾いてみたくなったのです。そこで、過去に買ったギター関連の本を探すと、TAB譜を発見しました。さっそく弾いてみたのですが、これが難しかったですね。

 しばらくアコースティック・ギターをさわっていなかった上、これまでに弾いたことのないパターンなので、かなり苦労しました。先ずは指のリハビリからです。
 
 途中であきらめたりしたので、結局半年くらいかかったかな(笑)永すぎです・・・
 この曲がギター復活のリハビリ曲だったわけですね。

Arlo Guthrie playing Alice’s Restaurant

 これは2分ほどに短縮したバージョンです。当時かなり人気を博した曲でアメリカでは多くのファンがいます。69年のウッドストックにも出演、映画も作られました。
 この映像では、かなりのお歳に見えるのですが、元気そうですね。ギターもいい感じです。

Alice’s Restaurant

 で、こちらはYOUTUBEで見つけたギターがすごくわかり安い動画。このおじさん(sosautosさん)他にもギターソロをいっぱいUPしているのですが、上手いです。

こんな感じで弾けるといいですねぇ。

TAB譜

 この曲のTAB譜は、ネット上に豊富にあります。でもいろんなパターンがあるのですね。私の弾いているのはsosautoさんのに近いのですが、かなり簡単になっています。
 TAB譜を書くのははじめてなので、間違ってる可能性もありますが、載せて見ます。


|----------------|----------------|----------------|----------------|
|----------------|----------------|----------------|----0---1---3---|
|----------------|----------------|----------------|----0---0---0---|
|----------------|----------------|----------------|----------------|
|----------------|----------------|----------------|--------0---2---|
|----------------|----------------|----------------|----3-----------|

|0---------0-----|----5---3-------|--0-------0-----|----------------|
|--------4-------|--2-------5-----|3-------3-------|1---0---1---3---|
|----------------|------2---------|----------------|0---0---0---0---|
|----2-------0-2-|----2-------0-2-|----4-------0---|----------------|
|3---------------|0-------0-------|5---------------|3-------0---2---|
|--------3-------|----------------|--------3-------|----3-----------|

|0---------0-----|----5---3-------|----------0-----|3---------------|
|--------4-------|--2-------5-----|----3---3-------|0-------2---3---|
|----------------|------2---------|------5-----5---|--0-------------|
|----2-------0-2-|----2-------0-2-|----4-------4---|----------------|
|3---------------|0-------0-------|5---------------|--------1---2---|
|--------3-------|----------------|----------------|3---------------|

|0---------0-----|----------0-----|----------------|----------------|
|--------4-------|----1---1-------|----0---1-------|1-3-----1-3-----|
|----------------|------3-----3---|2---------2-----|----------------|
|----2-----------|----2-------2---|----3-------3-0-|----0-------0---|
|3-----------2---|3---------------|----------------|0---------------|
|--------3-------|----------------|1-------1-------|--------2-------|

|0---------------|----5---3-------|0---0---3-0-----|----------------|
|----------------|--2-------5-----|--2---2---------|1---0---1---3---|
|----------------|------2---------|----------------|0---0---0---0---|
|---2------------|----2-------0-2-|----4-----------|----------------|
|3-------2---1---|0-------0-------|5---------------|3-------0---2---|
|----------------|----------------|--------3-------|----3-----------|

歌詞

 この曲のメロディのあるつまり歌の部分の歌詞です。

You can get anything you want at Alice's Restaurant
You can get anything you want at Alice's Restaurant
Walk right in it's around the back
Just a half a mile from the railroad track
You can get anything you want at Alice's Restaurant

アリスのレストランならなんでもあるぜ
アリスのレストランならなんでも食えるぜ
裏の道を歩いて
線路から800m
アリスのレストランならなんでもあるぜ

ぐらいの意味ですねぇ

Big Bill Broonzy plays "Hey Hey" / ヘイ・ヘイ

 YOUTUBEでアリスを見ているうちに見つけたHey,Heyが2番目の曲です。ギター1本でこんなにカッコいいブルースが弾けるんですねぇ。しかもそれほど難しそうではありません。

 これはオリジナル(?)、さすがにこんなにかっこよくは弾けないですね。

 私が見つけて当時練習に使ったのは、もう消えていました。かなりわかりやすいギターレッスンのビデオだったのに残念です。

 

Eric Clapton Hey,Hey Guitar Lesson by Siggi Mertens

 別のギターレッスンビデオはあります。もちろん英語ですが、音と映像で十分理解で来ます。
 運指はそれほど難しくないし、短いのでアリスと同様マスターしやすい曲だと思います。だた問題はリズム感、リズムが上手くとれないとまるでどうしようもない演奏になります。かなり練習が必要でした。

Joplin’s ragtime the entertainer / エンターテイナー

 アリスでラグタイムのことがもっと知りたくなり一番に思い当たったのがこの曲です。だれもが一度は聞いたことがあるメロディーですよね。でももともとピアノの曲です。ピアノではそれほど難しい曲ではないようです。(わかんないですが)高校生のころ友人がよく弾いていました。

 ピアノの曲をギターにすると難しいですし、そのままはムリです。だから色々なアレンジがあるんですね。3曲目にこの曲を選んだのは、YOUTUBEで見つけたからではありません。あるサイトで初心者むけのアレンジを無料で公開してくれていたからです。

ラグタイム受難曲@ギター編

 ラグタイムのことが本当に良くわかる素晴らしいサイトです。ここにエンターテイナー初心者むけアレンジのタブ譜があり、演奏を聞くこともできます。

 しかし、初心者向けとはいえ、独学でフォークやロックが中心だった私にはかなりの強敵でした。2パートの構成ですが、前半はまだしも後半は苦労しました。やはり、3ヶ月はかかりましたね。

 これがある程度弾けるようになると、ベースの部分が弾きながら独立して聞こえるんですね。これが弾いていて実に気持ちがいいのです。ギターソロをこれから目指す方にはぜひオススメです。 ⇒こちらへどうぞ

giorgio plays joplin’s ragtime the entertainer

 クラシックギターでよく演奏される曲でもあるのですが、この演奏はスチール弦で、しかも雰囲気がクラッシクって感じではないです。
 渋くていいですね。「初心者用アレンジ」とはキーも違うし、4パートフルの演奏です。ここまで行くには何年かかるかなぁ。

ragtime guitar / ラグタイム・ギター  この曲が弾きたい!

 YOUTUBEで見つけたラグタイム・ギター、これはカッコいい。それにこのおじさん(まぁ、私も十分おじさんですが)ギター上手いなぁ。

 この曲はBlind Blake(ブラインド・ブレイク)の曲らしいですね。タイトルは解りません。
 Blind Blake はラグタイムのギタリストとして有名な方だそうで、YOUTUBEにもたくさん曲が載っています。しかし、ちょっとチャレンジしたのですが、難しすぎる。とても今の技量ではむりですね。

 この曲はわからないのですが、Blind Blake の曲はTAB譜が多数あります。次のページで紹介するPower Tab のデータもあるので、曲を聴くこともできます。

2017/9
SUN MON TUE WED THU FRI SAT
          1 2
3 4 5 6 7 8 9
10 11 12 13 14 15 16
17 18 19 20 21 22 23
24 25 26 27 28 29 30




-- LINK --
Live in Japan Live at 武道館 落ちないアイライン FineMake Chura 沖縄ソロギターサークル Pullin Off 居酒屋プリモ PRIMO
理想の結婚
久米島の紹介
ワード エクセル
沖縄ぷらっと散策
簡単口臭予防!!
辛口映画評価情報
爆笑面白映像!!
便秘の悩み解消法
沖縄の味 沖縄味噌
BRAHMAN/ブラフマン
世界のスーパーカー
C言語入門/リンク集
沖縄県 運転代行案内
HTML&CSS入門
システムオブアダウン
RED HOT CHILI PEPPERS
FXの基本 FXと外貨預金
簡単に運気を上げる方法
人気お笑い芸人ブログ集
美味しいもつ鍋 レシピ
パスタレシピ/パスタ料理
PHP 入門 | PHPスクリプト
おいしいお茶が飲みたい!
これは便利!アイデア商品
グーグルアドセンスで稼ぐ
ダイビング・ファンタジア
ダイビング沖縄&水中写真
パソコン整備士学習ノート
引越し業者リンク集・一覧
石鹼/石鹸/せっけん
僕の愛したバイクと車たち
沖縄レンタルサーバーGENKI
基礎から解る!PHP入門講座
燻製 作り方 | 燻製 レシピ
つーさんのダイビング与太話
クリスマス・ソング☆ロック
ダイエットを成功させよう!
国産自動車&自動車メーカー
裏原宿系/ストリートブランド
Live in Japan Live at 武道館
ドライブのときに聴きたい曲!
ヴィジュアル系ロックバンド!
沖縄の癒し面白観光ブラリ旅!
世界のバイク&バイクメーカー
抜け毛・薄毛、予防と育毛知識
沖縄ファインメイクstudioCHURA
Half Awake In Okinawa 沖縄夢現
Overground Acoustic Underground
WEB作成用プログラム言語リンク集
エレクトリック・ギター・メーカー
沖縄ソロギターサークルPullingOff
健康自然塩 海草塩 フコイダン塩
男と女の1番の悩みってなんだろう
アコースティック・ギター・メーカー
自家焙煎珈琲工房ローリングビーンズ
インキン・水虫 の悩み解決法リンク集
バーベキュー&アウトドア・クッキング
アコースティック・ソロギターに夢中!
ザ・ゾンビパニックホラームービー!!
「ゆがみ」をなくしてキレイになりたい!
キャリアコンサルタント資格試験学習ノート
プログレッシブ・ロック・レコードレビュー
ロシア語を覚えてハバロフスクへ行きたい!
ギターアドリブ入門

Copyright © 2006 GENKI,Inc.All Rights Riserved edit