アコースティック・ソロギター、アコギのソロ、こんな曲を練習しています。

アコースティック・ソロギターに夢中!

お気に入りアコースティック・ソロギターを紹介、アコギソロはいいですよ。

アコースティック・ソロギター(アコギソロ)に夢中、アコースティック・ソロギターでこんな曲を弾きたい!

 ギターを弾き始めたのは30年以上も前、始めて手に入れたのはやはり、アコースティック・ギター(アコギ)です。一人で弾くのも好きでしたが、バンドも経験しました。しかし、この10年ほどギターに触ることもなくなっていました。昔の情熱もなくなり、忙しさに追われてギターは押入れで眠ったままでした。

 しかし、近年ちょっとしたことからアコースティック・ギターに目覚め、再び弾き始めました。今、アコースティック・ソロギターに夢中です。

 アコースティックのソロギターって楽しいですね。弾きはじめるとつい時の経つのも忘れてしまいます。
 今はYOUTUBEがあるので、曲も豊富に探せます。このサイトは、私が弾いている曲を紹介したくて作成しました。

 アコースティック・ソロギターと言ってもレベルは様々です。このサイトで取り上げる曲は、初心者にはちょっと大変かも知れません。中の下レベルかなぁ。僕と同じくらいのレベルの方の曲探しに役立てば光栄です。

Ed Gerhard - The Water is Wide / ウォーター イズ ワイド

 この曲は、高校生の頃にカーラ・ボノフのアルバムで知りました。ジェームス・テーラーも歌っています。改めて調べて見ると、元々はアイルランド民謡で、アメリカではたくさんのカバーが出ているのです。

 「アメリカ人なら誰でも知っている」的な歌なのでしょう。ギターアレンジもいくつかあり過去に何度も発表されているようです。

 ギターソロとは関係なくこの曲を聞いていたところ、Ed agerhard のギターソロを発見したのです。これは衝撃でした。素晴らしいの一言です。これほどまでの美しいギターソロは聞いたことがありません。

 ギターテクニックとしてはそれほど難しいものではないと思うのですが、アレンジが素晴らしいですね。しかし、オープンチューニングも解らないし、音の広がりが普通ではありません。自分が弾けるとは考えもしませんでした。
 しかし、この曲それほど難しい曲ではないのです。(私が弾けるくらいですから)スリーフィンガーやアルペジオが楽にできる人ならなんとかなるはずです。

 もしこの曲を聞いたことがなければ是非聴いてください。感動します。私も最近このギタリストを知ったのですが、現代のアメリカを代表すると言っても過言ではないほど、高い評価を得ているギタリストなんですね。演奏技術もかなり高いのですが、音楽としての美しさの方が際立っているギタリストです。

 

The Water Is Wide(Traditional)with lyrics-Karla Bonoff

 これが私が最初に聞いたカーラ・ボノフのWater is Wide です。ジェームス・テーラーのコーラスとアコーディオンのソロが素晴らしい。
 ちなみにこのアルバムは1979年発表、30年ほど前、かなりヒットしたアルバムで、他にも名曲がたくさん収録されています。

The Water Is Wide - Indigo Girls/Sarah MacLachlan/ Jewel

 もう一つ、これは現役のアメリカの女性デュオ、インディゴ・ガールズ。この2人に二人の女性ボーカルが加わった4人でのコーラス。これも実に美しいアレンジです。

Power Tab Editor

 この曲を弾くことができたのは Power Tab Editor のおかげです。シンプルなテキストだけのタブ譜でも弾き方はわかるのですが、このPower Tab Editor は楽譜がある上に、MIDI音源で実際の音が出てしまうのですから、練習には最適です。

 さらに、複数の楽器構成を作ることができるので、ほとんどDTMの装置として使えるほどです。しかもギターに関する設定、オープンチューニングやハーモニックスなどまであるのですから驚きです。

 そしてこれだけのソフトが無料ですから、なんともありがたいものです。ただ、パソコンだけで使う場合音源が貧弱なので音はあまり期待しないでください。

Power Tab をダウンロード

 残念ながら、英語ソフトでダウンロードも英語サイトからです。しかもわかりにくい。 ⇒Click to Go!

そんな時はこちらのサイト

 日本語の解説サイトです。ありがたいものですね。感謝! ⇒こちらへどうぞ

Water is Wide のTAB譜をダウンロード

 Water is Wide のTAB譜はここでダウンロードできます。しかし海外のTAB譜サイトはどうしてこんなにわかりにくくて、広告がいっぱいあるのでしょうね。ポップアップも出てくるので注意してください。

 リンクのページ911TABSの右下
「Download "The Water is Wide" Power Tab」ボタンをクリックすればダウンロードできます。 ⇒こちらへどうぞ
 しかし、このTAB譜残念ながら上の動画と同じではありません。メインのメロディーは3回繰り返されているのですが、毎回違いがあります。TAB譜では1回目と2回目が同じなんですね。

 それで、2番のTAB譜を書いてみました。だいたいこんな感じだと思います。
|-------------------------0-------|-2-----------0-------------------|
|-----------------3---------------|-3-------3-------3-----------0---|
|-------------2---0---------------|-2-----------------------2-------|
|-----------------0---------------|-----0---------------0-----------|
|-----------------2---------------|---------------------------------|
|---------------------------------|-0---------------4---------------|

|-------------0-------------------|---------------------------------|
|-------------0---3-------0-------|-------------3-----------3-------|
|---------0-------4-------0---2---|-----------------------------2---|
|-----0---------------0-------4---|---------4-------4-5-------------|
|---------------------------------|-----0---------------------------|
|-5---------------5---------------|-0-------------------0-----------|

|---------------------------------|---------------------------------|
|-----------------3-------2---3---|---------3-------2-------3---0---|
|---------2-------0---------------|-------------4---4-------4---0---|
|-4-------4---0---2---------------|-----4-----------4-------4-------|
|-----------------1---------------|-2-------------------0-----------|
|-----0---------------------------|---------------------------------|

|-----------------0----2----3-----|-0---------------------------0---|
|-------------0-------------------|-----0---------------------------|
|---------0-------0----2----0-----|---------7---------------7-------|
|-----4---------------------------|-------------5-------5-----------|
|---------------------------------|-0---------------7---------------|
|-2-------------------------------|---------------------------------|

|---------0---2-----------3---5---|-------------5---5---------------|
|-2-------2---3-----------5---2---|---------2---2---2-------0---1---|
|---------------------------------|---------2-----------2-----------|
|-2-------------------------------|-----2---------------2---0---2---|
|-----0---------------------------|-----------------4---------------|
|---------------------------------|-4-------------------------------|


|-------5-3---2---0-----------2---|---------------------------------|
|-------------3-----------3---0---|-------------0---------------0---|
|---------5-------5---------------|---------0-------2-------0-------|
|-------------------------4-------|-----0---------------4-----------|
|-----0---------------0-----------|---------------------------------|
|-0-------------------------------|-5---------------4---------------|

|-------------0-------------------|---------------------------------|
|-----------------3-------0-------|---------------------------------|
|-------------0-------------------|-2-----------2-----------2-------|
|---------2-------4-------0-------|-0-------0---0-------0---0-------|
|-----2---------------2-----------|-----4-----------4-----------4---|
|-2-------------------------------|-4-----------4-----------4-------|

|---------------------------------|
|-----------------3-------2---3---|
|-------------4---4-------2-0-----|
|---------2-----------------------|
|-----2---------------0-----------|
|-2-------------------------------|

右手の指の話

 アコースティック・ギターでソロを弾くとき、私は薬指をボディに着けていました。小指を着けて引く人は多いのですが、薬指を着けるのはあまり聞きません。

 右手は薬指までピッキングに使うのが普通ですから、薬指をボディに着けると演奏が制限されます。でも、スリーフィンガーは中指まで、薬指は必要ないのです。私がなぜ薬指をボディに着けたのかは覚えていないのですが、右手が安定する上、使用する指が3本で確定するので、スリーフィンガーの曲は弾き易いのです。

 もちろん薬指まで使うアルペジオでは、右手は浮かせたままで弾きます。つまり曲によって薬指を着けるか着けないかが決まるのです。

 しかし、この曲でこの悪い癖から抜け出しました。3フィンガーと4フィンガーが入り混じるこの曲ではボディに薬指を着けていては弾けないのですね。

 この場合右手を安定させるのは肘です。右手の肘でギターのボディをしっかり挟み込んで手を固定します。

 練習が進んで感じたのは、目は左手を見ていることがほとんどなのですが、目は左手をみながら、心では右の指を見ながら弾かなければいけないということです。

I will The Beatles / Sungha Jung

 ビートルズのI Will、演奏は韓国(?)の天才少年Sungha Jung 12歳くらいだと思うのだが、恐ろしく上手いです。

 このアレンジがEd Gerhard なんですね。YOUTUBEでは彼の演奏は見つかりませんが、6弦をDに下げただけのドロップDのチューニングと和音の響きはさすが Ed Gerhard です。

 The Water is Wide でドロップDにも慣れていたので、次にチャレンジしたのがこの曲でした。

難しすぎる!

 ちょっと甘く見ていましたね。私には難しい曲でした。しかし、これにとりかかった頃はかなり夢中になっていたので、なんとしてでも弾いてやろうとがんばってみました。

 この曲はどちらかと言うとクラシックのような演奏です。と言うか音があちこち飛ぶし、かなり左手にムリな体勢を要求してくる曲です。
 イントロは軽快ですごくいいのですが、指が思うように動いてくれません。イントロだけで1週間以上かかりました。
 サビの部分がさらに大変、人差し指と小指を限界まで広げたり、これまでの曲とはまるでレベルが違う感じです。

 それでも、2ヶ月ほどで、ゆっくりなら弾けるようになって来ました。そこで、とにかく練習に励もうと、休みの日は2時間も3時間も弾き続けがんばっていたのですが・・・

痛すぎる!

 3時間ほど練習をした次の日、左手に違和感を感じました。むくんでいるような変な感じです。熱を持っている感じで、これまでに体験したことがない感覚でした。

 ギターを弾こうとすると手が痛いのです。特に人差し指と中指の第2間接が痛い。それに手が膨らんでいる感じで、ギターのネックをうまく握れないのです。

 ショックでした。ネットで調べると、ギターの練習のしすぎで腱鞘炎になると言う記述がありました。症状はまさしくそれです。

 ここまできて、腱鞘炎か、もう少しで弾きこなせるはずだったのに。目が覚めてから6時間くらいはとてもギターを弾ける状態ではありませんが、不思議なことに12時間くらいたつと痛みもむくみもおさまってきます。

 それで、また練習、しかし、翌日はまた手がまるでグローブです。
 上の記事を書いてから3週間ほどですが、やっと痛みが和らいで来ました。この間できるだけギターを弾かないように、ムリな体勢をとらないようにしてきました。
 朝は手がむくんでいて、とてもギターは弾けません。熱があるので氷で冷やしたり、シップをしたりしました。それと手と腕の筋力トレーニングです。

 それでも弾きたかったので、以前の曲をやっていたのですが、ずいぶん弾きやすいなぁと感じました。
 かなり、良くなりました。医者にも行ったのですが、耐えられる痛みなら動かした方がいいということで、練習再開です。
一ヶ月ほどになりますが、痛みは治まりません。もっとも以前ほどひどいものではないので、普通に弾く事ができるのですが、特に中指小指の第2関節が痛い。なんとかならないかなぁ。
2ヶ月経過しました。いまだに小指の痛みはありますが、やっと気にならなくなるくらいに回復。それでも、以前に比べると不自由なかんじです。もう少しで完全復帰かなぁ。
やっと、このことを忘れるくらいになりました。よかった。いったいなんだったのかなぁ。でも昔と違うのは指が疲れることですね、特に練習をした後は小指が疲れている感じがします。
 治りました。このことを忘れてしまっていたほどです。よかった。指の疲れもないし完全復帰です。好きなだけギターが弾けるっていいですね。

The Handling Down - Ed Gerhard (cover)

 この曲も綺麗です。次ぎはこの曲を弾きたい。

 手の痛みが和らぎ、I Will も何とかなってきたので、この曲にチャレンジしています。
 運指は、I Will よりもずっと楽なのですが、右手が難しい。2弦のチューニングが低めなのでピッキングが難しいのです。

 2弦はなぜか音がでかいので、1弦とのバランスが悪くなるのです。その上、指が微妙に触れるとビリビリとひどい音になります。

 左の指も1弦を押さえる指が2弦に触れないようにしなければいけません。新たな試練ですね。

Si Bhig, Si Mhor arranged by Ed Gerhard

 シーベグ・シーモアと読むのだと思うのですが、正解はわかりません。調べて見ると、アイルランドの伝統的な曲ですね。YOUTUBE にたくさんあります。ギター曲と言うわけではなくボーカルやハープ、リコーダーでの演奏もありますね。

 この曲は他のアレンジもいいものが、たくさんありますね。しかし、Ed Gerhard のアレンジは見つかりませんでした。そこで、上手くないですが、私の演奏です。
2017/11
SUN MON TUE WED THU FRI SAT
      1 2 3 4
5 6 7 8 9 10 11
12 13 14 15 16 17 18
19 20 21 22 23 24 25
26 27 28 29 30   




-- LINK --
Live in Japan Live at 武道館 落ちないアイライン FineMake Chura 沖縄ソロギターサークル Pullin Off 居酒屋プリモ PRIMO
理想の結婚
久米島の紹介
ワード エクセル
沖縄ぷらっと散策
簡単口臭予防!!
辛口映画評価情報
爆笑面白映像!!
便秘の悩み解消法
沖縄の味 沖縄味噌
BRAHMAN/ブラフマン
世界のスーパーカー
C言語入門/リンク集
沖縄県 運転代行案内
HTML&CSS入門
システムオブアダウン
RED HOT CHILI PEPPERS
FXの基本 FXと外貨預金
簡単に運気を上げる方法
人気お笑い芸人ブログ集
美味しいもつ鍋 レシピ
パスタレシピ/パスタ料理
PHP 入門 | PHPスクリプト
おいしいお茶が飲みたい!
これは便利!アイデア商品
グーグルアドセンスで稼ぐ
ダイビング・ファンタジア
ダイビング沖縄&水中写真
パソコン整備士学習ノート
引越し業者リンク集・一覧
石鹼/石鹸/せっけん
僕の愛したバイクと車たち
沖縄レンタルサーバーGENKI
基礎から解る!PHP入門講座
燻製 作り方 | 燻製 レシピ
つーさんのダイビング与太話
クリスマス・ソング☆ロック
ダイエットを成功させよう!
国産自動車&自動車メーカー
裏原宿系/ストリートブランド
Live in Japan Live at 武道館
ドライブのときに聴きたい曲!
ヴィジュアル系ロックバンド!
沖縄の癒し面白観光ブラリ旅!
世界のバイク&バイクメーカー
抜け毛・薄毛、予防と育毛知識
沖縄ファインメイクstudioCHURA
Half Awake In Okinawa 沖縄夢現
Overground Acoustic Underground
WEB作成用プログラム言語リンク集
エレクトリック・ギター・メーカー
沖縄ソロギターサークルPullingOff
健康自然塩 海草塩 フコイダン塩
男と女の1番の悩みってなんだろう
アコースティック・ギター・メーカー
自家焙煎珈琲工房ローリングビーンズ
インキン・水虫 の悩み解決法リンク集
バーベキュー&アウトドア・クッキング
アコースティック・ソロギターに夢中!
ザ・ゾンビパニックホラームービー!!
「ゆがみ」をなくしてキレイになりたい!
キャリアコンサルタント資格試験学習ノート
プログレッシブ・ロック・レコードレビュー
ロシア語を覚えてハバロフスクへ行きたい!
ギターアドリブ入門

Copyright © 2006 GENKI,Inc.All Rights Riserved edit