アコースティック・ソロギター、アコギのソロ、こんな曲を練習しています。

アコースティック・ソロギターに夢中!

お気に入りアコースティック・ソロギターを紹介、アコギソロはいいですよ。

アコースティック・ソロギター(アコギソロ)に夢中、アコースティック・ソロギターでこんな曲を弾きたい!

 ギターを弾き始めたのは30年以上も前、始めて手に入れたのはやはり、アコースティック・ギター(アコギ)です。一人で弾くのも好きでしたが、バンドも経験しました。しかし、この10年ほどギターに触ることもなくなっていました。昔の情熱もなくなり、忙しさに追われてギターは押入れで眠ったままでした。

 しかし、近年ちょっとしたことからアコースティック・ギターに目覚め、再び弾き始めました。今、アコースティック・ソロギターに夢中です。

 アコースティックのソロギターって楽しいですね。弾きはじめるとつい時の経つのも忘れてしまいます。
 今はYOUTUBEがあるので、曲も豊富に探せます。このサイトは、私が弾いている曲を紹介したくて作成しました。

 アコースティック・ソロギターと言ってもレベルは様々です。このサイトで取り上げる曲は、初心者にはちょっと大変かも知れません。中の下レベルかなぁ。僕と同じくらいのレベルの方の曲探しに役立てば光栄です。

Bach: Bourree in e-minor / バッハ ブーレ

 バッハの曲はギターでも数多く演奏されています。このブーレは人気のある曲で、クラシックに限らず演奏されています。超速弾ギタリスト、マルムスティーンも演奏しています。


 バッハは練習曲もたくさんあるので、レベルに幅があるんですね。比較的簡単に美しいクラシックの曲が弾けるのでクラシックに興味のない方もぜひチャレンジして見てください。

 この演奏はクラシックギターですが、スチール弦で弾いてもまた違った良さがでます。
 私が弾いているパターンをTAB譜にして見ました、YOUTUBEのものより簡単です。私はフォーク・ギターで弾いているのですが、ネックは細いタイプなのですね。それで、私は左の親指をよく使います。セーハが苦手な私は親指で6弦を押さえることが多くあります。この曲では6弦の2フレットはすべて親指を使っています。
PART1
|-------------------0--2--|-3-----2--0--------0--2--|-------------0-----------|-------------------------|
|-------------------------|-------------4-----------|-0-----2--4--------3--1--|-0-----------------------|
|-------------------------|-------------------------|-------------------------|-------2--0--------0--2--|
|-------------------------|-------------------------|-------------------------|-------------4-----------|
|-------------------------|-------0-----2-----0-----|-------------------------|-------0-----2-----0-----|
|-------------------3--2--|-0-----------------------|-3-----2-----0-----2-----|-3-----------------------|

|-------------------0--2--|-3-----2--0--------0--2--|-------------0-----------|-------------------------|
|-0-----------------------|-------------4-----------|-0-----2--4--------3--1--|-0-----------------------|
|----2--0-----------------|-------------------------|-------------------------|-------2--0-----------0--|
|----------4--2-----------|-------------------------|-------------------------|-------------4-----------|
|-------2-----------------|-------0-----2-----0-----|-------------------------|-------0-----5-----5-----|
|-3-----------0--2--3--2--|-0-----------------------|-3-----2-----0-----2-----|-3-----------------------|

            PART2
|-------------------------|-------------------3-----|-0-----------------------|-------------------------|
|-------------------0-----|-3--------1--0--------3--|----------3--------------|----------0--1-----0-----|
|-0--------------------0--|-------2-----------------|-------4-----5-----4--2--|-1-----2--------------2--|
|-0-----------------------|-------0-----------------|-------------------0-----|-2-----------2-----------|
|-2-----------------------|-------------------2-----|-3-----------0-----------|-------0-----------------|
|-3-----------------3-----|-2-----------3-----------|-------4-----------------|-------------------0-----|

|-------------------------|-------3-----0-----------|-------5--------------0--|-------------------------|
|-------------------3-----|-0--------3-----------3--|----------5--7-----2-----|-3-----2--0-----------0--|
|-2--------------------2--|-------------------4-----|-5-----------------------|-------------3-----------|
|-------------------0-----|-------------------------|-------------0-----------|-------2-----4-----------|
|-0--2--0-----------------|-------2-----3-----------|-0-----4-----------1-----|-2-----------------------|
|-----------3--2----------|-3-----------------4-----|-------------------------|-------------------2-----|

|-------------------7-----|-------------5-----0--3--|-2-----0-----3-----------|-------5--0--2--------0--|
|-0--------------------7--|-9-----7--5--------------|----------3--------3--6--|-5-----------------2-----|
|-------------------------|-------------------------|-------------------------|-------------------------|
|-------------------------|-------0-----------------|-0-----------------------|-------------------------|
|-2--1--2--4--6-----------|-7-----------4-----0-----|-------3-----2-----------|-3-----2-----0-----------|
|-------------------7-----|-------------------------|-------------------3-----|-------------------2-----|

|-------------------0-----|-------------------------|-------------------------|-------------------------|
|-4-----0--------------0--|-1-----3-----0-----1-----|-------------------------|-------------------------|
|-------------------------|----------2-----------0--|-2-----4-----------------|-------------------------|
|-------------------------|----2--4--------1--2-----|----------4--5-----4--2--|-1-----2--4--5-----4--2--|
|-2--------3--2--0--------|-0-----------------------|----4--6-----------0-----|-2-----0-----2-----------|
|-------------------4-----|-------------3-----------|-2-----------0-----------|-------------------------|

|-------------------------|
|-------------------------|
|-------------------------|
|-2-----------------------|
|-------------------------|
|-0-----------------------|

Bach Choral-bwv147, David Russell / バッハ カノン BWV147

 バッハのカンタータBWV 174「主よ、人の望みの喜びよ」という曲です。宗教音楽ですが、美しく聞きやすいこのメロディーは一度は耳にしたことがあるのではないでしょうか。
 
 ソロギターの練習用にはとてもいいと思います。

 でも、このYOUTUBEの演奏はかなりレベルが高そうです、もっと簡単なアレンジのものがあるので、今はそれを練習しています。power tab で聞くことができるので紹介します。

指長いなぁ・・・

 このYOUTUBEを見ていて気がついたのですが、指が長いですね。自分の指と比べるとまるで違います。これだけ長い指なら弾くのが楽だろうなぁ。

 こればかりはどうしようもないですね。特に薬指と小指の長さは演奏の要ですよ。複雑な曲ほど小指が高域でメロディーを担当するので絶対有利です。

 しかし、負けないでがんばりましょう。世の中には小さな手で見事な演奏をするギタリストだっているのです。

Power Tab が見つからない

 Power Tab は以前に2種類手に入れたのですが、配布元がわかりません。もしかしたら削除されてしまったのかもしれません。コピーを置いておきます。
2017/9
SUN MON TUE WED THU FRI SAT
          1 2
3 4 5 6 7 8 9
10 11 12 13 14 15 16
17 18 19 20 21 22 23
24 25 26 27 28 29 30




-- LINK --
Live in Japan Live at 武道館 落ちないアイライン FineMake Chura 沖縄ソロギターサークル Pullin Off 居酒屋プリモ PRIMO
理想の結婚
久米島の紹介
ワード エクセル
沖縄ぷらっと散策
簡単口臭予防!!
辛口映画評価情報
爆笑面白映像!!
便秘の悩み解消法
沖縄の味 沖縄味噌
BRAHMAN/ブラフマン
世界のスーパーカー
C言語入門/リンク集
沖縄県 運転代行案内
HTML&CSS入門
システムオブアダウン
RED HOT CHILI PEPPERS
FXの基本 FXと外貨預金
簡単に運気を上げる方法
人気お笑い芸人ブログ集
美味しいもつ鍋 レシピ
パスタレシピ/パスタ料理
PHP 入門 | PHPスクリプト
おいしいお茶が飲みたい!
これは便利!アイデア商品
グーグルアドセンスで稼ぐ
ダイビング・ファンタジア
ダイビング沖縄&水中写真
パソコン整備士学習ノート
引越し業者リンク集・一覧
石鹼/石鹸/せっけん
僕の愛したバイクと車たち
沖縄レンタルサーバーGENKI
基礎から解る!PHP入門講座
燻製 作り方 | 燻製 レシピ
つーさんのダイビング与太話
クリスマス・ソング☆ロック
ダイエットを成功させよう!
国産自動車&自動車メーカー
裏原宿系/ストリートブランド
Live in Japan Live at 武道館
ドライブのときに聴きたい曲!
ヴィジュアル系ロックバンド!
沖縄の癒し面白観光ブラリ旅!
世界のバイク&バイクメーカー
抜け毛・薄毛、予防と育毛知識
沖縄ファインメイクstudioCHURA
Half Awake In Okinawa 沖縄夢現
Overground Acoustic Underground
WEB作成用プログラム言語リンク集
エレクトリック・ギター・メーカー
沖縄ソロギターサークルPullingOff
健康自然塩 海草塩 フコイダン塩
男と女の1番の悩みってなんだろう
アコースティック・ギター・メーカー
自家焙煎珈琲工房ローリングビーンズ
インキン・水虫 の悩み解決法リンク集
バーベキュー&アウトドア・クッキング
アコースティック・ソロギターに夢中!
ザ・ゾンビパニックホラームービー!!
「ゆがみ」をなくしてキレイになりたい!
キャリアコンサルタント資格試験学習ノート
プログレッシブ・ロック・レコードレビュー
ロシア語を覚えてハバロフスクへ行きたい!
ギターアドリブ入門

Copyright © 2006 GENKI,Inc.All Rights Riserved edit